Tablatura Fácil de... Bohemian Rhapsody. Queen.

  "Bohemian Rhapsody" la archiconocida canción de los británicos rockeros Queen, fue escrita por Freddie Mercury para el álbum de 1975 "A Night at the Opera." 

"Bohemian Rhapsody" fue todo un éxito comercial, permaneciendo en el Top Ten de las listas británicas durante nueve semanas, volviendo, tras la muerte de Freddie Mercury, al número uno, convirtiendo al single en el tercero más vendido de todos los tiempos en Reino Unido.

  En 2018 se estrenaba la película basada en la vida del cantante de la banda, Freddie Mercury y los propios Queen y era el tema "Bohemian Rhapsody" el que daba título a la película que fue galardonada con numerosos premios, entre ellos: cuatro Óscars y dos Globos de Oro. 

  Hoy os quiero dejar, un momento en tablatura del tema, en concreto el solo de guitarra que se marca Brian May, para que paséis un buen rato y practiquéis con vuestra guitarra.

  Un saludo.






Tablatura Fácil de... Bohemina Rhapsody. Queen.


(Solo).

1.--------------------------|
2.----------------11--8-11(13)
3.---10(12)(10)p8-----------|
4.-8------------------------|
5.--------------------------|
6.--------------------------|


1.--------------------------|
2.-13--15-16-13--15-16(18)--|
3.--------------------------|
4.--------------------------|
5.--------------------------|
6.--------------------------|



1.----13-15-16-18-18(20)(18)16
2.-13-----------------------|
3.--------------------------|
4.--------------------------|
5.--------------------------|
6.--------------------------|



1.-15-16-15h16p15----15----16
2.----------------18----18--|
3.--------------------------|
4.--------------------------|
5.--------------------------|
6.--------------------------|



1.--------------------------|
2.-15-16-15h16p15----15-----|
3.----------------17----17-15
4.--------------------------|
5.--------------------------|
6.--------------------------|



1.----------------15-16-18--|
2.-------15-16-18-----------|
3.-15-17--------------------|
4.--------------------------|
5.--------------------------|
6.--------------------------|



1.----------------15-16-18--|
2.-------15-16-18-----------|
3.-15-17--------------------|
4.--------------------------|
5.--------------------------|
6.--------------------------|



1.-18(20)-------------------|
2.---------15-16-13--15-16-13
3.--------------------------|
4.--------------------------|
5.--------------------------|
6.--------------------------|



1.------------------------13
2.-15-16-16(18)-------------|
3.---------------10-12-13---|
4.--------------------------|
5.--------------------------|
6.--------------------------|



1.----------------------|
2.-----14-14-14-14-14/--|
3.-13-------------------|
4.----------------------|
5.----------------------|
6.----------------------|


Comentarios

Lo más leído: