Tabs fácil de... Juego de Tronos. Ian, Bettencourt y Morello.

  
  Aprovechando todo el revuelo y expectación que se montaba en torno a la última temporada de la serie, Fender presentaba una edición limitada de tres guitarras construidas por la Fender Custom Shop cada una, como estandarte de cada una de las familias de Juego de Tronos.

  Ésta colección la formaban, como seguro recordarás, la Fender Game of Thrones House Stark TelecasterGame of Thrones House Lannister Jaguar y la Game of Thrones House Targaryen Stratocaster. Cada una, hecha a mano por Ron Thorn, el Master Builder principal de Fender y a la que se le habían dedicado alrededor de cien horas de pura artesanía.



  Fender elegía para presentar a cada guitarra, a los guitarristas Nuno Bettencourt, Tom Morello e Scott Ian, a quienes podéis ver a continuación junto a Ramin Djawadi, el compositor de la banda sonora y el guionista Daniel Brett Weiss, tocando con estas mismas guitarras el tema principal de la serie.


  Hoy quiero dejarte un pequeño momento en tablatura del momento en que todos los guitarristas tocan juntos la banda sonara de la aclamada serie televisiva.

  Un saludo.






Tabs fácil de... Juego de Tronos. Guitarras Fender.


(2:03)

1.----------------------------|

2.----------------------------|
3.-4---------4--------4-------|
4.-----5-7-------5-7------5-7-|
5.---7---------7--------7-----|
6.----------------------------|

1.----------------------------|

2.----------------------------|
3.-4---------4--------4-------|
4.-----5-7-------5-7------5-7-|
5.---7---------7--------7-----|
6.----------------------------|

1.---------------------|

2.---------------------|
3.-4---------4---------|
4.-----5-7-------5-7---|
5.---7---------7-------|
6.---------------------|...

1.----------------------------|
2.----------------------------|
3.-4---------4----------------|
4.-------5-7------5-7-4--7----|
5.----7---------7-----------5-|
6.----------------------------|

1.-----------------|
2.-----------------|
3.-----------------|
4.-5-4-7----5-4----|
5.-------5------7--|
6.-----------------|

1.----------------------------|
2.-12-----------12------------|
3.----9--11-12-----9--11-12-11
4.----------------------------|
5.----------------------------|
6.----------------------------|

1.--------------------------/12
2.----------------------------|
3.-14------11--12-11----9-----|
4.-----12------------12-------|
5.----------------------------|
6.----------------------------|

1.-12--10-12-10---------------|
2.--------------13----12-13-12
3.----------------------------|
4.-----------------14---------|
5.----------------------------|
6.----------------------------|

1.----------------------------|
2.-8---------8h10--10h12--12h13
3.------/12-------------------|
4.---10-----------------------|
5.----------------------------|
6.----------------------------|

1.----------------------------|
2.-p10h12---/17--17--15-17-15-|
3.----------------------------|
4.----------------------------|
5.----------------------------|
6.----------------------------|

1.----------------------------|
2.----------------------------|
3.-17-----16-17-16--12--------|
4.-------------------------17-|
5.----19---------------15-----|
6.----------------------------|

1.-------|
2.-------|
3.-------|
4.-16-14-|
5.-------|
6.-------|...

(3:31)

1.----------------------|
2.--/12-----------------|
3.------9--11-12--14(16)
4.----------------------|
5.----------------------|
6.----------------------|

1.-----------------|

2.------7---7------|
3.--9-7---7---7----|
4.--------------9--|
5.-----------------|
6.-----------------|...

Comentarios

Lo más leído: