Tabs Fácil de... Throw my bones. Deep Purple.

Whoosh! Nuevo Disco de Deep Purple.

  Ya hace tiempo que Deep Purple había anunciado que para este 2020 habría nuevo disco de la banda. De echo dieron los detalles, fecha de salida, el 12 de Junio, portada del disco y título del disco y el track list, pero es ahora, cuando nos presentan su primer sencillo y anuncio oficial de lo que será su plástico número 21 en toda su carrera.

  "Whoosh!" llevará por título el próximo disco de Gillan y compañía que, a pesar de los numerosos rumores, en una reciente entrevista dejaba claro la imposibilidad de una reunión con Ritchie Blackmore, que sigue inmerso en su propio proyecto.

Tracklist de Whoosh!:

1.Throw My Bones.
2.Drop The Weapon.
3.We’re All The Same In The Dark.
4.Nothing At All.
5.No Need To Shout.
6.Step By Step.
7.What the What.
8.The Long Way Around.
9.The Power of the Moon.
10.Remission Possible.
11.Man Alive.
12.And the Address.
13.Dancing In My Sleep.


Throw my Bones. Primer sencillo y Tablatura.

  El tema que han elegido para su primer sencillo es precisamente el que abre el disco, "Throw my bones" del que os quiero dejar hoy un pequeño momento en tablatura para que paséis un buen rato tocando la guitarra con una de las leyendas aún en activo del hard rock, Deep Purple.

  Un saludo.




Tabs Fácil de... Throw my bones. Deep Purple.


(0:33)  "All I've got...

1.-------------------------|
2.-------------------------|
3.-------------------------|
4.-3-3-3-3-3-3-3-----------|
5.-1-1-1-1-1-1-1--3-3-3-3-3
6.----------------1-1-1-1-1

1.--------------------------|
2.--------------------------|
3.--------------------------|
4.------5-5-5-5-5-5-5--3-3-3
5.-3-3--3-3-3-3-3-3-3--1-1-1
6.-1-1----------------------|

1.-------------------------|
2.-------------------------|
3.-------------------------|
4.-3-3-3-3--8-8-8-8-8-8-8--|
5.-1-1-1-1--6-6-6-6-6-6-6--|
6.-------------------------|

1.--------------------------|
2.--------------------------|
3.--------------------------|
4.-7-7-7-7-7-7-7--5-5-5-5-5-5
5.-5-5-5-5-5-5-5--3-3-3-3-3-3
6.--------------------------|

1.-------------|
2.-------------|
3.-------------|
4.-5--7-7-7-7--|
5.-3--5-5-5-5--|
6.-------------|...

1.--------------------------|
2.--------------------------|
3.--------------------------|
4.-5p4h5-x-x--5p4h5-x-x-x-x-|
5.--------------------------|
6.-----------------------|...

(1:17)  "All I've got...

1.-------------------------|
2.-------------------------|
3.-------------------------|
4.-3-3-3-3-3-3-3-----------|
5.-1-1-1-1-1-1-1--3-3-3-3-3
6.----------------1-1-1-1-1

1.--------------------------|
2.--------------------------|
3.--------------------------|
4.------5-5-5-5-5-5-5--3-3-3
5.-3-3--3-3-3-3-3-3-3--1-1-1
6.-1-1----------------------|

1.-------------------------|
2.-------------------------|
3.-------------------------|
4.-3-3-3-3--8-8-8-8-8-8-8--|
5.-1-1-1-1--6-6-6-6-6-6-6--|
6.-------------------------|

1.--------------------------|
2.--------------------------|
3.--------------------------|
4.-7-7-7-7-7-7-7--5-5-5-5-5-5
5.-5-5-5-5-5-5-5--3-3-3-3-3-3
6.--------------------------|

1.-------------|
2.-------------|
3.-------------|
4.-5--7-7-7-7--|
5.-3--5-5-5-5--|
6.-------------|...


(1:35)

1.--------------------------|
2.-4h3-----3----------------|
3.-----5-----5-3p2--------2-3
4.-----------------5--3h5---|
5.--------------------------|
6.--------------------------|

1.------------------------|
2.---------3-5------------|
3.---2-3-5-----3/5--------|
4.-5----------------7-7-7-|
5.------------------5-5-5-|
6.----------------------|...


(1:42)(Solo).

1.------------------------|
2.------------------------|
3.------------------------|
4.-12(14)-14--14-14-14(15)
5.------------------------|
6.---------------------|...


Comentarios

Lo más leído: